999
"DXF R12 Output" (www.mydxf.blogspot.com)
 0 
SECTION
 2 
HEADER
 9 
$ACADVER
 1 
AC1009
 9 
$EXTMIN
 10 
 0 
 20 
 0 
 9 
$EXTMAX
 10 
 8.5 
 20 
 11 
 0 
ENDSEC
 0 
SECTION
 2 
ENTITIES
0
LINE
8
Layer 1
10
1.000000
20
297.000000
11
-2.000000
21
294.000000
0
LINE
8
Layer 1
10
-2.000000
20
294.000000
11
-4.000000
21
294.000000
0
LINE
8
Layer 1
10
-4.000000
20
294.000000
11
-1.000000
21
297.000000
0
LINE
8
Layer 1
10
-1.000000
20
297.000000
11
-4.000000
21
300.000000
0
LINE
8
Layer 1
10
-4.000000
20
300.000000
11
-2.000000
21
300.000000
0
LINE
8
Layer 1
10
-2.000000
20
300.000000
11
1.000000
21
297.000000
0
LINE
8
Layer 1
10
58.382400
20
231.320000
11
65.312007
21
231.075867
0
LINE
8
Layer 1
10
65.312007
20
231.075867
11
72.285848
21
230.639905
0
LINE
8
Layer 1
10
72.285848
20
230.639905
11
79.310594
21
229.993048
0
LINE
8
Layer 1
10
79.310594
20
229.993048
11
86.392912
21
229.116233
0
LINE
8
Layer 1
10
86.392912
20
229.116233
11
93.539473
21
227.990397
0
LINE
8
Layer 1
10
93.539473
20
227.990397
11
100.756945
21
226.596473
0
LINE
8
Layer 1
10
100.756945
20
226.596473
11
108.051998
21
224.915399
0
LINE
8
Layer 1
10
108.051998
20
224.915399
11
115.431300
21
222.928110
0
LINE
8
Layer 1
10
115.431300
20
222.928110
11
115.066000
21
64.436300
0
LINE
8
Layer 1
10
115.066000
20
64.436300
11
58.382400
21
64.436300
0
LINE
8
Layer 1
10
58.382400
20
64.436300
11
58.382400
21
231.320000
0
LINE
8
Layer 1
10
58.178600
20
231.468000
11
115.196200
21
222.954050
0
LINE
8
Layer 1
10
86.808200
20
228.899000
11
86.436496
21
227.348940
0
LINE
8
Layer 1
10
86.436496
20
227.348940
11
86.427896
21
227.326720
0
LINE
8
Layer 1
10
58.317700
20
61.800200
11
114.668900
21
61.800190
0
LINE
8
Layer 1
10
114.978000
20
60.478600
11
115.029511
21
63.123050
0
LINE
8
Layer 1
10
58.214600
20
63.077400
11
58.266111
21
60.296180
0
LINE
8
Layer 1
10
117.623000
20
222.601000
11
117.622990
21
65.248000
0
LINE
8
Layer 1
10
116.306000
20
64.385400
11
118.941100
21
64.241562
0
LINE
8
Layer 1
10
118.895000
20
222.889000
11
116.123610
21
222.745162
0
LINE
8
Layer 1
10
55.818200
20
230.888000
11
55.818190
21
65.108000
0
LINE
8
Layer 1
10
54.501600
20
64.198700
11
57.136080
21
64.047158
0
LINE
8
Layer 1
10
57.090600
20
231.191000
11
54.319860
21
231.039458
 0 
ENDSEC
 0 
EOF